ISO-10303-21;
HEADER;
FILE_DESCRIPTION (( 'STEP AP203' ),
    '1' );
FILE_NAME ('Entry thread seal - Metric and NPT.32 Metric.STEP',
    '2013-02-07T10:14:33',
    ( '' ),
    ( '' ),
    'SwSTEP 2.0',
    'SolidWorks 2012',
    '' );
FILE_SCHEMA (( 'CONFIG_CONTROL_DESIGN' ));
ENDSEC;

DATA;
#1 = PRODUCT_DEFINITION_SHAPE ( 'NONE', 'NONE',  #210 ) ;
#2 = DESIGN_CONTEXT ( 'detailed design', #80, 'design' ) ;
#3 = CARTESIAN_POINT ( 'NONE',  ( -39.90653472252495200, 0.0000000000000000000, 22.05000000000000100 ) ) ;
#4 = DIRECTION ( 'NONE',  ( 0.0000000000000000000, 0.0000000000000000000, 1.000000000000000000 ) ) ;
#5 = DIRECTION ( 'NONE',  ( 0.0000000000000000000, 0.0000000000000000000, 1.000000000000000000 ) ) ;
#6 = DIRECTION ( 'NONE',  ( -1.000000000000000000, -0.0000000000000000000, -0.0000000000000000000 ) ) ;
#7 = CARTESIAN_POINT ( 'NONE',  ( -1.000000000000000900, 0.0000000000000000000, 0.0000000000000000000 ) ) ;
#8 = CARTESIAN_POINT ( 'NONE',  ( -1.000000000000000900, 0.0000000000000000000, 0.0000000000000000000 ) ) ;
#9 = DIRECTION ( 'NONE',  ( 0.0000000000000000000, 0.0000000000000000000, 1.000000000000000000 ) ) ;
#10 = DIRECTION ( 'NONE',  ( -1.000000000000000000, -0.0000000000000000000, -0.0000000000000000000 ) ) ;
#11 = DIRECTION ( 'NONE',  ( 0.0000000000000000000, 0.0000000000000000000, 1.000000000000000000 ) ) ;
#12 = CARTESIAN_POINT ( 'NONE',  ( -39.90653472252495200, 0.0000000000000000000, 0.0000000000000000000 ) ) ;
#13 = DIRECTION ( 'NONE',  ( -1.000000000000000000, -0.0000000000000000000, -0.0000000000000000000 ) ) ;
#14 = DIRECTION ( 'NONE',  ( 0.0000000000000000000, 0.0000000000000000000, 1.000000000000000000 ) ) ;
#15 = PLANE ( 'NONE',  #243 ) ;
#16 = DIRECTION ( 'NONE',  ( -1.000000000000000000, -0.0000000000000000000, -0.0000000000000000000 ) ) ;
#17 = DIRECTION ( 'NONE',  ( -1.000000000000000000, -0.0000000000000000000, -0.0000000000000000000 ) ) ;
#18 = CARTESIAN_POINT ( 'NONE',  ( -39.90653472252495200, 1.959434878635765100E-015, -16.00000000000000000 ) ) ;
#19 = CARTESIAN_POINT ( 'NONE',  ( -39.90653472252495200, 0.0000000000000000000, 16.00000000000000000 ) ) ;
#20 = CARTESIAN_POINT ( 'NONE',  ( 1.000000000000000900, 0.0000000000000000000, 0.0000000000000000000 ) ) ;
#21 = CARTESIAN_POINT ( 'NONE',  ( -39.90653472252495200, 2.700346192119913900E-015, -22.05000000000000100 ) ) ;
#22 = DIRECTION ( 'NONE',  ( -1.000000000000000000, -0.0000000000000000000, -0.0000000000000000000 ) ) ;
#23 = DIRECTION ( 'NONE',  ( -1.000000000000000000, -0.0000000000000000000, -0.0000000000000000000 ) ) ;
#24 = CARTESIAN_POINT ( 'NONE',  ( -39.90653472252495200, 0.0000000000000000000, 0.0000000000000000000 ) ) ;
#25 = DIRECTION ( 'NONE',  ( -1.000000000000000000, -0.0000000000000000000, -0.0000000000000000000 ) ) ;
#26 = DIRECTION ( 'NONE',  ( 0.0000000000000000000, 0.0000000000000000000, -1.000000000000000000 ) ) ;
#27 = DIRECTION ( 'NONE',  ( 1.000000000000000000, 0.0000000000000000000, 0.0000000000000000000 ) ) ;
#28 = DIRECTION ( 'NONE',  ( 0.0000000000000000000, 0.0000000000000000000, 1.000000000000000000 ) ) ;
#29 = DIRECTION ( 'NONE',  ( -1.000000000000000000, -0.0000000000000000000, -0.0000000000000000000 ) ) ;
#30 = CARTESIAN_POINT ( 'NONE',  ( -1.000000000000000900, 0.0000000000000000000, 0.0000000000000000000 ) ) ;
#31 = CARTESIAN_POINT ( 'NONE',  ( -1.000000000000002200, 22.05000000000000100, 0.0000000000000000000 ) ) ;
#32 = DIRECTION ( 'NONE',  ( -1.000000000000000000, -0.0000000000000000000, -0.0000000000000000000 ) ) ;
#33 = PERSON_AND_ORGANIZATION_ROLE ( 'creator' ) ;
#34 = APPROVAL_ROLE ( '' ) ;
#35 = CARTESIAN_POINT ( 'NONE',  ( -39.90653472252495200, 0.0000000000000000000, 0.0000000000000000000 ) ) ;
#36 = DIRECTION ( 'NONE',  ( 0.0000000000000000000, 0.0000000000000000000, 1.000000000000000000 ) ) ;
#37 = CARTESIAN_POINT ( 'NONE',  ( 0.9999999999999978900, 16.00000000000000000, 0.0000000000000000000 ) ) ;
#38 = DIRECTION ( 'NONE',  ( -1.000000000000000000, 0.0000000000000000000, -0.0000000000000000000 ) ) ;
#39 = PERSON_AND_ORGANIZATION_ROLE ( 'design_supplier' ) ;
#40 = SECURITY_CLASSIFICATION_LEVEL ( 'unclassified' ) ;
#41 = PERSON_AND_ORGANIZATION_ROLE ( 'classification_officer' ) ;
#42 = APPROVAL_STATUS ( 'not_yet_approved' ) ;
#43 = CARTESIAN_POINT ( 'NONE',  ( 1.000000000000000900, 1.959434878635765100E-015, -16.00000000000000000 ) ) ;
#44 = CARTESIAN_POINT ( 'NONE',  ( -1.000000000000000900, 2.700346192119913900E-015, -22.05000000000000100 ) ) ;
#45 = CARTESIAN_POINT ( 'NONE',  ( 1.000000000000000900, 0.0000000000000000000, 16.00000000000000000 ) ) ;
#46 = CARTESIAN_POINT ( 'NONE',  ( 1.000000000000000900, 0.0000000000000000000, 22.05000000000000100 ) ) ;
#47 = CARTESIAN_POINT ( 'NONE',  ( -1.000000000000000900, 1.959434878635765100E-015, -16.00000000000000000 ) ) ;
#48 = DATE_TIME_ROLE ( 'classification_date' ) ;
#49 = APPROVAL_STATUS ( 'not_yet_approved' ) ;
#50 = APPROVAL_ROLE ( '' ) ;
#51 = DIRECTION ( 'NONE',  ( -1.000000000000000000, -0.0000000000000000000, -0.0000000000000000000 ) ) ;
#52 = CARTESIAN_POINT ( 'NONE',  ( -39.90653472252495200, 0.0000000000000000000, 0.0000000000000000000 ) ) ;
#53 = DIRECTION ( 'NONE',  ( -1.000000000000000000, -0.0000000000000000000, -0.0000000000000000000 ) ) ;
#54 = DIRECTION ( 'NONE',  ( 0.0000000000000000000, 0.0000000000000000000, 1.000000000000000000 ) ) ;
#55 = CARTESIAN_POINT ( 'NONE',  ( 1.000000000000000900, 2.700346192119913900E-015, -22.05000000000000100 ) ) ;
#56 = DIRECTION ( 'NONE',  ( -1.000000000000000000, -0.0000000000000000000, -0.0000000000000000000 ) ) ;
#57 = DIRECTION ( 'NONE',  ( -0.0000000000000000000, 0.0000000000000000000, 1.000000000000000000 ) ) ;
#58 = CARTESIAN_POINT ( 'NONE',  ( 1.000000000000000900, 0.0000000000000000000, 0.0000000000000000000 ) ) ;
#59 = DIRECTION ( 'NONE',  ( -1.000000000000000000, -0.0000000000000000000, -0.0000000000000000000 ) ) ;
#60 = DIRECTION ( 'NONE',  ( 0.0000000000000000000, 0.0000000000000000000, 1.000000000000000000 ) ) ;
#61 = DIRECTION ( 'NONE',  ( 0.0000000000000000000, 0.0000000000000000000, 1.000000000000000000 ) ) ;
#62 = CARTESIAN_POINT ( 'NONE',  ( 0.0000000000000000000, 0.0000000000000000000, 0.0000000000000000000 ) ) ;
#63 = CARTESIAN_POINT ( 'NONE',  ( -1.000000000000000900, 0.0000000000000000000, 0.0000000000000000000 ) ) ;
#64 = PLANE ( 'NONE',  #241 ) ;
#65 = DIRECTION ( 'NONE',  ( 0.0000000000000000000, 0.0000000000000000000, 1.000000000000000000 ) ) ;
#66 = CARTESIAN_POINT ( 'NONE',  ( -1.000000000000000900, 0.0000000000000000000, 16.00000000000000000 ) ) ;
#67 = CARTESIAN_POINT ( 'NONE',  ( -1.000000000000000900, 0.0000000000000000000, 22.05000000000000100 ) ) ;
#68 = CARTESIAN_POINT ( 'NONE',  ( 1.000000000000000900, 0.0000000000000000000, 0.0000000000000000000 ) ) ;
#69 = CARTESIAN_POINT ( 'NONE',  ( 1.000000000000000900, 0.0000000000000000000, 0.0000000000000000000 ) ) ;
#70 = DIRECTION ( 'NONE',  ( -1.000000000000000000, -0.0000000000000000000, -0.0000000000000000000 ) ) ;
#71 = DIRECTION ( 'NONE',  ( 0.0000000000000000000, 0.0000000000000000000, 1.000000000000000000 ) ) ;
#72 =( LENGTH_UNIT ( ) NAMED_UNIT ( * ) SI_UNIT ( .MILLI., .METRE. ) );
#73 =( NAMED_UNIT ( * ) PLANE_ANGLE_UNIT ( ) SI_UNIT ( $, .RADIAN. ) );
#74 =( NAMED_UNIT ( * ) SI_UNIT ( $, .STERADIAN. ) SOLID_ANGLE_UNIT ( ) );
#75 = APPLICATION_PROTOCOL_DEFINITION ( 'international standard', 'config_control_design', 1994, #76 ) ;
#76 = APPLICATION_CONTEXT ( 'configuration controlled 3d designs of mechanical parts and assemblies' ) ;
#77 = DIRECTION ( 'NONE',  ( 1.000000000000000000, 0.0000000000000000000, 0.0000000000000000000 ) ) ;
#78 = MECHANICAL_CONTEXT ( 'NONE', #76, 'mechanical' ) ;
#79 = PERSON_AND_ORGANIZATION_ROLE ( 'design_owner' ) ;
#80 = APPLICATION_CONTEXT ( 'configuration controlled 3d designs of mechanical parts and assemblies' ) ;
#81 = APPLICATION_PROTOCOL_DEFINITION ( 'international standard', 'config_control_design', 1994, #80 ) ;
#82 = APPROVAL_STATUS ( 'not_yet_approved' ) ;
#83 = APPROVAL_ROLE ( '' ) ;
#84 = PERSON_AND_ORGANIZATION_ROLE ( 'creator' ) ;
#85 = DATE_TIME_ROLE ( 'creation_date' ) ;
#86 = DIRECTION ( 'NONE',  ( 0.0000000000000000000, 0.0000000000000000000, 1.000000000000000000 ) ) ;
#87 = DIRECTION ( 'NONE',  ( -1.000000000000000000, -0.0000000000000000000, -0.0000000000000000000 ) ) ;
#88 = MANIFOLD_SOLID_BREP ( 'Revolve1', #131 ) ;
#89 = VERTEX_POINT ( 'NONE', #67 ) ;
#90 = VERTEX_POINT ( 'NONE', #66 ) ;
#91 = VERTEX_POINT ( 'NONE', #55 ) ;
#92 = VERTEX_POINT ( 'NONE', #44 ) ;
#93 = VERTEX_POINT ( 'NONE', #43 ) ;
#94 = VERTEX_POINT ( 'NONE', #47 ) ;
#95 = VERTEX_POINT ( 'NONE', #45 ) ;
#96 = FACE_BOUND ( 'NONE', #102, .T. ) ;
#97 = FACE_BOUND ( 'NONE', #99, .T. ) ;
#98 = VERTEX_POINT ( 'NONE', #46 ) ;
#99 = EDGE_LOOP ( 'NONE', ( #119, #120 ) ) ;
#100 = EDGE_LOOP ( 'NONE', ( #127, #128 ) ) ;
#101 = EDGE_LOOP ( 'NONE', ( #115, #116, #117, #118 ) ) ;
#102 = EDGE_LOOP ( 'NONE', ( #129, #130 ) ) ;
#103 = EDGE_LOOP ( 'NONE', ( #108, #107, #109, #110 ) ) ;
#104 = EDGE_LOOP ( 'NONE', ( #123, #124, #125, #126 ) ) ;
#105 = EDGE_LOOP ( 'NONE', ( #111, #112, #113, #114 ) ) ;
#106 = EDGE_LOOP ( 'NONE', ( #121, #122 ) ) ;
#107 = ORIENTED_EDGE ( 'NONE', *, *, #227, .T. ) ;
#108 = ORIENTED_EDGE ( 'NONE', *, *, #238, .F. ) ;
#109 = ORIENTED_EDGE ( 'NONE', *, *, #228, .T. ) ;
#110 = ORIENTED_EDGE ( 'NONE', *, *, #229, .F. ) ;
#111 = ORIENTED_EDGE ( 'NONE', *, *, #230, .T. ) ;
#112 = ORIENTED_EDGE ( 'NONE', *, *, #231, .T. ) ;
#113 = ORIENTED_EDGE ( 'NONE', *, *, #232, .F. ) ;
#114 = ORIENTED_EDGE ( 'NONE', *, *, #233, .F. ) ;
#115 = ORIENTED_EDGE ( 'NONE', *, *, #231, .F. ) ;
#116 = ORIENTED_EDGE ( 'NONE', *, *, #234, .T. ) ;
#117 = ORIENTED_EDGE ( 'NONE', *, *, #233, .T. ) ;
#118 = ORIENTED_EDGE ( 'NONE', *, *, #235, .F. ) ;
#119 = ORIENTED_EDGE ( 'NONE', *, *, #236, .F. ) ;
#120 = ORIENTED_EDGE ( 'NONE', *, *, #228, .F. ) ;
#121 = ORIENTED_EDGE ( 'NONE', *, *, #232, .T. ) ;
#122 = ORIENTED_EDGE ( 'NONE', *, *, #235, .T. ) ;
#123 = ORIENTED_EDGE ( 'NONE', *, *, #227, .F. ) ;
#124 = ORIENTED_EDGE ( 'NONE', *, *, #237, .F. ) ;
#125 = ORIENTED_EDGE ( 'NONE', *, *, #229, .T. ) ;
#126 = ORIENTED_EDGE ( 'NONE', *, *, #236, .T. ) ;
#127 = ORIENTED_EDGE ( 'NONE', *, *, #230, .F. ) ;
#128 = ORIENTED_EDGE ( 'NONE', *, *, #234, .F. ) ;
#129 = ORIENTED_EDGE ( 'NONE', *, *, #237, .T. ) ;
#130 = ORIENTED_EDGE ( 'NONE', *, *, #238, .T. ) ;
#131 = CLOSED_SHELL ( 'NONE', ( #198, #199, #196, #197, #194, #195 ) ) ;
#132 = CYLINDRICAL_SURFACE ( 'NONE', #240, 16.00000000000000000 ) ;
#133 = FACE_OUTER_BOUND ( 'NONE', #103, .T. ) ;
#134 = LINE ( 'NONE', #18, #142 ) ;
#135 = FACE_OUTER_BOUND ( 'NONE', #100, .T. ) ;
#136 = FACE_OUTER_BOUND ( 'NONE', #101, .T. ) ;
#137 = FACE_OUTER_BOUND ( 'NONE', #104, .T. ) ;
#138 = CIRCLE ( 'NONE', #239, 16.00000000000000000 ) ;
#139 = CYLINDRICAL_SURFACE ( 'NONE', #242, 22.05000000000000100 ) ;
#140 = FACE_OUTER_BOUND ( 'NONE', #106, .T. ) ;
#141 = FACE_OUTER_BOUND ( 'NONE', #105, .T. ) ;
#142 = VECTOR ( 'NONE', #17, 1000.000000000000000 ) ;
#143 = CYLINDRICAL_SURFACE ( 'NONE', #245, 16.00000000000000000 ) ;
#144 = CIRCLE ( 'NONE', #244, 22.05000000000000100 ) ;
#145 = CYLINDRICAL_SURFACE ( 'NONE', #200, 22.05000000000000100 ) ;
#146 = LINE ( 'NONE', #19, #148 ) ;
#147 = LINE ( 'NONE', #21, #151 ) ;
#148 = VECTOR ( 'NONE', #16, 1000.000000000000000 ) ;
#149 = LINE ( 'NONE', #3, #154 ) ;
#150 = CIRCLE ( 'NONE', #201, 22.05000000000000100 ) ;
#151 = VECTOR ( 'NONE', #23, 1000.000000000000000 ) ;
#152 = CIRCLE ( 'NONE', #202, 22.05000000000000100 ) ;
#153 = CIRCLE ( 'NONE', #206, 16.00000000000000000 ) ;
#154 = VECTOR ( 'NONE', #22, 1000.000000000000000 ) ;
#155 = CIRCLE ( 'NONE', #203, 22.05000000000000100 ) ;
#156 = CIRCLE ( 'NONE', #204, 16.00000000000000000 ) ;
#157 = CIRCLE ( 'NONE', #205, 16.00000000000000000 ) ;
#158 = SHAPE_DEFINITION_REPRESENTATION ( #1, #247 ) ;
#159 = ORGANIZATION ( 'UNSPECIFIED', 'UNSPECIFIED', '' ) ;
#160 = PERSON_AND_ORGANIZATION ( #249, #159 ) ;
#161 = PERSON_AND_ORGANIZATION ( #249, #159 ) ;
#162 = APPROVAL_PERSON_ORGANIZATION ( #161, #211, #83 ) ;
#163 = COORDINATED_UNIVERSAL_TIME_OFFSET ( 0, 0, .AHEAD. ) ;
#164 = LOCAL_TIME ( 10, 14, 33.00000000000000000, #163 ) ;
#165 = CALENDAR_DATE ( 2013, 7, 2 ) ;
#166 = DATE_AND_TIME ( #165, #164 ) ;
#167 = APPROVAL_DATE_TIME ( #166, #211 ) ;
#168 = PERSON_AND_ORGANIZATION ( #249, #159 ) ;
#169 = COORDINATED_UNIVERSAL_TIME_OFFSET ( 0, 0, .AHEAD. ) ;
#170 = LOCAL_TIME ( 10, 14, 33.00000000000000000, #169 ) ;
#171 = CALENDAR_DATE ( 2013, 7, 2 ) ;
#172 = DATE_AND_TIME ( #171, #170 ) ;
#173 = PERSON_AND_ORGANIZATION ( #249, #159 ) ;
#174 = APPROVAL_PERSON_ORGANIZATION ( #173, #216, #34 ) ;
#175 = COORDINATED_UNIVERSAL_TIME_OFFSET ( 0, 0, .AHEAD. ) ;
#176 = LOCAL_TIME ( 10, 14, 33.00000000000000000, #175 ) ;
#177 = CALENDAR_DATE ( 2013, 7, 2 ) ;
#178 = DATE_AND_TIME ( #177, #176 ) ;
#179 = APPROVAL_DATE_TIME ( #178, #216 ) ;
#180 = PERSON_AND_ORGANIZATION ( #249, #159 ) ;
#181 = PERSON_AND_ORGANIZATION ( #249, #159 ) ;
#182 = PERSON_AND_ORGANIZATION ( #249, #159 ) ;
#183 = COORDINATED_UNIVERSAL_TIME_OFFSET ( 0, 0, .AHEAD. ) ;
#184 = LOCAL_TIME ( 10, 14, 33.00000000000000000, #183 ) ;
#185 = CALENDAR_DATE ( 2013, 7, 2 ) ;
#186 = DATE_AND_TIME ( #185, #184 ) ;
#187 = PERSON_AND_ORGANIZATION ( #249, #159 ) ;
#188 = APPROVAL_PERSON_ORGANIZATION ( #187, #223, #50 ) ;
#189 = COORDINATED_UNIVERSAL_TIME_OFFSET ( 0, 0, .AHEAD. ) ;
#190 = LOCAL_TIME ( 10, 14, 33.00000000000000000, #189 ) ;
#191 = CALENDAR_DATE ( 2013, 7, 2 ) ;
#192 = DATE_AND_TIME ( #191, #190 ) ;
#193 = APPROVAL_DATE_TIME ( #192, #223 ) ;
#194 = ADVANCED_FACE ( 'NONE', ( #137 ), #132, .F. ) ;
#195 = ADVANCED_FACE ( 'NONE', ( #135, #96 ), #64, .F. ) ;
#196 = ADVANCED_FACE ( 'NONE', ( #136 ), #139, .T. ) ;
#197 = ADVANCED_FACE ( 'NONE', ( #97, #140 ), #15, .F. ) ;
#198 = ADVANCED_FACE ( 'NONE', ( #133 ), #143, .F. ) ;
#199 = ADVANCED_FACE ( 'NONE', ( #141 ), #145, .T. ) ;
#200 = AXIS2_PLACEMENT_3D ( 'NONE', #52, #51, #11 ) ;
#201 = AXIS2_PLACEMENT_3D ( 'NONE', #8, #56, #61 ) ;
#202 = AXIS2_PLACEMENT_3D ( 'NONE', #58, #59, #60 ) ;
#203 = AXIS2_PLACEMENT_3D ( 'NONE', #63, #10, #9 ) ;
#204 = AXIS2_PLACEMENT_3D ( 'NONE', #7, #6, #5 ) ;
#205 = AXIS2_PLACEMENT_3D ( 'NONE', #69, #87, #86 ) ;
#206 = AXIS2_PLACEMENT_3D ( 'NONE', #68, #70, #71 ) ;
#207 =( GEOMETRIC_REPRESENTATION_CONTEXT ( 3 ) GLOBAL_UNCERTAINTY_ASSIGNED_CONTEXT ( ( #246 ) ) GLOBAL_UNIT_ASSIGNED_CONTEXT ( ( #72, #73, #74 ) ) REPRESENTATION_CONTEXT ( 'NONE', 'WORKASPACE' ) );
#208 = AXIS2_PLACEMENT_3D ( 'NONE', #62, #4, #77 ) ;
#209 = CC_DESIGN_PERSON_AND_ORGANIZATION_ASSIGNMENT ( #160, #79, ( #248 ) ) ;
#210 = PRODUCT_DEFINITION ( 'UNKNOWN', '', #215, #2 ) ;
#211 = APPROVAL ( #82, 'UNSPECIFIED' ) ;
#212 = CC_DESIGN_APPROVAL ( #211, ( #210 ) ) ;
#213 = CC_DESIGN_PERSON_AND_ORGANIZATION_ASSIGNMENT ( #168, #84, ( #210 ) ) ;
#214 = CC_DESIGN_DATE_AND_TIME_ASSIGNMENT ( #172, #85, ( #210 ) ) ;
#215 = PRODUCT_DEFINITION_FORMATION_WITH_SPECIFIED_SOURCE ( 'ANY', '', #248, .NOT_KNOWN. ) ;
#216 = APPROVAL ( #42, 'UNSPECIFIED' ) ;
#217 = CC_DESIGN_APPROVAL ( #216, ( #215 ) ) ;
#218 = CC_DESIGN_PERSON_AND_ORGANIZATION_ASSIGNMENT ( #180, #33, ( #215 ) ) ;
#219 = CC_DESIGN_PERSON_AND_ORGANIZATION_ASSIGNMENT ( #181, #39, ( #215 ) ) ;
#220 = SECURITY_CLASSIFICATION ( '', '', #40 ) ;
#221 = CC_DESIGN_PERSON_AND_ORGANIZATION_ASSIGNMENT ( #182, #41, ( #220 ) ) ;
#222 = CC_DESIGN_DATE_AND_TIME_ASSIGNMENT ( #186, #48, ( #220 ) ) ;
#223 = APPROVAL ( #49, 'UNSPECIFIED' ) ;
#224 = CC_DESIGN_APPROVAL ( #223, ( #220 ) ) ;
#225 = CC_DESIGN_SECURITY_CLASSIFICATION ( #220, ( #215 ) ) ;
#226 = PRODUCT_RELATED_PRODUCT_CATEGORY ( 'detail', '', ( #248 ) ) ;
#227 = EDGE_CURVE ( 'NONE', #93, #94, #134, .T. ) ;
#228 = EDGE_CURVE ( 'NONE', #94, #90, #138, .T. ) ;
#229 = EDGE_CURVE ( 'NONE', #95, #90, #146, .T. ) ;
#230 = EDGE_CURVE ( 'NONE', #98, #91, #144, .T. ) ;
#231 = EDGE_CURVE ( 'NONE', #91, #92, #147, .T. ) ;
#232 = EDGE_CURVE ( 'NONE', #89, #92, #150, .T. ) ;
#233 = EDGE_CURVE ( 'NONE', #98, #89, #149, .T. ) ;
#234 = EDGE_CURVE ( 'NONE', #91, #98, #152, .T. ) ;
#235 = EDGE_CURVE ( 'NONE', #92, #89, #155, .T. ) ;
#236 = EDGE_CURVE ( 'NONE', #90, #94, #156, .T. ) ;
#237 = EDGE_CURVE ( 'NONE', #95, #93, #157, .T. ) ;
#238 = EDGE_CURVE ( 'NONE', #93, #95, #153, .T. ) ;
#239 = AXIS2_PLACEMENT_3D ( 'NONE', #30, #29, #28 ) ;
#240 = AXIS2_PLACEMENT_3D ( 'NONE', #35, #32, #36 ) ;
#241 = AXIS2_PLACEMENT_3D ( 'NONE', #37, #38, #57 ) ;
#242 = AXIS2_PLACEMENT_3D ( 'NONE', #12, #13, #65 ) ;
#243 = AXIS2_PLACEMENT_3D ( 'NONE', #31, #27, #26 ) ;
#244 = AXIS2_PLACEMENT_3D ( 'NONE', #20, #53, #54 ) ;
#245 = AXIS2_PLACEMENT_3D ( 'NONE', #24, #25, #14 ) ;
#246 = UNCERTAINTY_MEASURE_WITH_UNIT (LENGTH_MEASURE( 1.000000000000000100E-005 ), #72, 'distance_accuracy_value', 'NONE');
#247 = ADVANCED_BREP_SHAPE_REPRESENTATION ( 'Entry thread seal - Metric and NPT.32 Metric', ( #88, #208 ), #207 ) ;
#248 = PRODUCT ( 'Entry thread seal - Metric and NPT.32 Metric', 'Entry thread seal - Metric and NPT.32 Metric', '', ( #78 ) ) ;
#249 = PERSON ( 'UNSPECIFIED', 'UNSPECIFIED', 'UNSPECIFIED', ('UNSPECIFIED'), ('UNSPECIFIED'), ('UNSPECIFIED') ) ;
ENDSEC;
END-ISO-10303-21;
